Forumet - NU SKA JAG SJUNGA OM KÄRLEK GLASS, GRÖNA ÄNGAR OCH KING KONGS TASS!!!

NU SKA JAG SJUNGA OM KÄRLEK GLASS, GRÖNA ÄNGAR OCH KING KONGS TASS!!!

279 0 15

Spana också in:

Skrev lite, så att du hittar varifrån det går, ungefärligen. Du göra om detta till femackord eller vad du änhelst vill, men här har du en fingervisning.


Början:
-------------------------------------------------------
--------------------------------------------------------
--------------------------------------------------------
--------------------------------------------------------
----6----1-----6-5-6-5-6-1--------------------------
-----------------------------------------------------

Osv, sedan går det på och på och på med sex fem sex fem sex ett i hela introsaken.


NU SKALL JAG SJUNGA OM KÄRLEKSBLASK osv går så här, om och om igen:

-------------------------------------------------------
--------------------------------------------------------
--------------------------------------------------------
--------------3------------------------------------------
-------5-----------------------------------------------
----3-----6--------------------------------------------

EN SLEMMIG TORSK, EN SLEMMIG TORSK går första gången så här:


-------------------------------------------------------
--------------------------------------------------------
--------------------------------------------------------
---------4------4-----4------6-------------------------
------4------4-----4------6----------------------------
-----------------------------------------------------

Hela tiden, varpå du börjar om med introgrejen som går sex fem sex fem sex ett.


Därefter kommer versen JAG STOPPAR UPP FINGRET BAKOM EN TAPET, denna går likadant som den första versen.

Därefter kommer refrängen EN SLEMMIG TORSK som nu går så här:

-------------------------------------------------------
--------------------------------------------------------
--------------------------------------------------------
---------5------5-----5------7---------------------------
------5------5-----5------7-------------------------------
-----------------------------------------------------

Och sedan det lilla outroplinket som nu går sju sex sju sex sju två, på A-strängen. Precis som i början, men ett halvt tonsteg upp. [mad]